@ピース♡HOME
【2013/09/03 トップページ追加更新】
0--3-----9-----------------------------------------------------------69-------------------88
...o0o...
愛の巣の天使達.JPG
【Iの巣】
街中から山奥へ住を移し、美しい自然と共に生き、
地球に生かされていることに感謝する日々です。
そんな素晴らしさを少しづつ分け愛たい!
と想い季節ごとにOPENする。
『Iの巣』毎回何をするかがお楽しみ。
地球のあちこちから色んな人たちが集まる
秘密基地です。
(http://ameblo.jp/i-no-su/)
0--3-----9 十日町 ------------ 108
0--3-----9-----------------------------------------------------------69-------------------88
...o0o...
junjungo.jpg
【楽器屋 JUNJUN】
(http://www.info-niigata.or.jp/~junjun/)
(http://junjun.blog-niigata.net/)
. .
『ココロから。。。』
0--3-----9 巻町 ------------ 108
0--3-----9-----------------------------------------------------------69-------------------88
...o0o...
梶田イフ.jpg
青空キャンプ
(https://twitter.com/aozora_camp)
【2013/10/11-14 青空キャンプ @大平森林公園開催】
(http://fb.me/13wM8JywY/)
新潟県見附市大平森林公園にて開祭。2023/10/11-14
0--3-----9 見附市 ------------ 108
0--3-----9-----------------------------------------------------------69-------------------88
...o0o...
IMG_0681.JPG
【浜メグリ インフォメーション】
(http://hamameguri-2.sblo.jp/)
【2012/10/前13後 浜メグリ @越前浜開催】終了
0--3-----9 新潟市越前浜 ------------ 108
0--3-----9-----------------------------------------------------------69-------------------88
...o0o...
【三条楽音祭】
sanjyourakuon.jpg
【2013/09/01 @ヒメサユリ森林公園】
(http://rakuonsai.com/)
0--3-----9 三条市 ------------ 108
0--3-----9-----------------------------------------------------------69-------------------88
...o0o...
【坂詰ギグ】
sakazukegig2013.jpg
【2013/09/14-15 坂詰ギグ2013 @山本山高原山頂開催】
(http://blog.crazylaurel.shop-pro.jp/?eid=948560)
東北大震災チャリティLIVE 坂詰ギグ2012
(http://italhero.seesaa.net/article/300090507.html)
0--3-----9 小千谷市 ------------ 108
0--3-----9-----------------------------------------------------------69-------------------88
Tropical Resort BAWWAW!
IMG_0692.JPG
---------
1964/09/090oo...-v(show-wa-japan-olympic-w.)o0o...。。。
うみでうまれやまとであいかえりました。
---------
〒953-0012 新潟市西蒲区越前浜 6838-1
6838-1 Echizenhama Niigatashi,Zip 953-0012,Japan
TELEPHONE/FAX:0256-70-2700
【... .o0o. italhero --- ...】
@BAWWAW!HOME
MESSAGE BOARD
http://italhero.seesaa.net/category/11215262-1.html
0--3-----9-----------------------------------------------------------69-------------------88
0123456789-------108

2013年10月01日

2013/10/05 ママドゥ・ドゥンビア×寺原太郎ライブ @ばうわう

0--3-----9-----------------------------------------------------------69-------------------88
...o0o...

浜メグリ 浜の秋展 2013 参加企画
ママドゥ・ドゥンビア×寺原太郎ライブ
コラ&バーンスリー
ママドゥ・ドゥンビア &寺原太郎ライブ.jpg


演奏者:
Mamadou Doumbia ママドゥ・ドゥンビア(コラ奏者)
マリ共和国クリコロ県生まれ、11才よりギターを始める。
高校時代には既にレコーディングをするなど学生ミュージシャンとしてキャりアを積む。
緻密で鋭い切れのギターワークが持ち味。
音楽大国マリのビックバンド、バマサマ、レイル、両バンドのメンバーとして早くから活躍する。
1991年より日本に移住。 
セカンドアルバム「YAFA」がイギリスのBBCミュージックマガジン
「The Best CDs of 1997」の1タイトルに選ばれる。
2000年5月、初のマキシシングル「BIRDS」をリリースし、
TV番組 「ここがヘンだよ日本人」のエンディングテーマ曲となる。
2008年5月、
TICAD IV(第4回アフリカ開発会議)のオープニングパーティーで天皇皇后両陛下、
日本政府高官、アフリカ諸国首脳にコラの単独演奏を披露。
現在 コラ、アフリカン・ギター、ンゴニなどアフリカ音楽や文化紹介のため
日本各地で公演を行う。
2013年からアフリカ各地の文化や音楽を紹介できる拠点として
文化会館の設立を目指して活動中。
アフリカン・カルチャー・センターAfrican culture Center(ACC)設立に向けての主な活動は
在日のアフリカ系アーティストや 世界各地のミュージシャンとともに音楽セッション、
文化交流トークなどを展開している。
http://mamadoujpn.web.fc2.com/

寺原太郎 テラハラタロウ(バーンスリー奏者)
1968年千葉生まれ。92年より中川博志氏に、96年よりAmit Roy氏に師事。
06年よりオーストラリアWoodford folk festivalに出演。
07年坂本龍一プロデュース「ロハス・クラシックコンサート」出演。
08年
インドのマイハルで開催された「アラウッディーン・ カーン音楽祭」に外国人として初めて招聘され好評を博す。
自身のソロコンサートの他、
チベット、インド、オーストラリア、南米、パキスタンなどさまざまな国のミュージシャンとも共演。
11年映画
「手塚治虫のブッダ〜赤い砂漠よ永遠に〜」
12年映画
「るろうに剣心」で挿入曲を担当。
第10回千葉市芸術文化新人賞奨励賞を受賞。 
http://srgmtaro.jimdo.com/

"Diarabi" Kora × Bansuri Mamadou & Taro
http://www.youtube.com/watch?v=qKLSywYeNlY

日時:2013年10月5日(土)17時開演 16時30開場
会場:トロピカルリゾート ばうわう(新潟市西蒲区越前浜 6838-1 浜茶屋)
*当日、飲食営業をしています。タイイカレーやロコモコなどなどフードメニュー多数。
どうぞ、ご利用ください。
*当日ライブ参加者、宿泊通常価格より1000円割引、寝袋持参の方更に500円割引。
宿泊をご希望される方は問い合わせください。

前売券:大人2500円 飲み物付き
当日券:大人3000円 (浜メグリチラシを持参の方は2500円) 小中高生500円

チケット取扱店:
トロピカルリゾートばうわう(新潟市西蒲区越前浜)
楽器屋JUNJUN(新潟市 西蒲区 松野尾) http://www.info-niigata.or.jp/~junjun/
たつまき堂(長岡市表町) http://www.tatsumakido.com/
はやかわ Antique & Crafts(南魚沼市八幡)  http://hayakawa.ldblog.jp/

予約・お問合せ:灯遊
電話:080-8090-4850
メール:hiasobi_niigata@excite.co.jp

協力:楽器屋JUNJUN http://www.info-niigata.or.jp/~junjun/

主催:灯遊 http://hiasobi.exblog.jp/

0--3-----9 @ばうわう ------------ 108 
0--3-----9-----------------------------------------------------------69-------------------88
posted by 坂本 ヒロヒト at 09:48| 新潟 ☁| Comment(0) | TrackBack(0) | 浜めぐり | 更新情報をチェックする

2012年10月13日

浜めぐり

IMG_0448.JPG
 
『何色に染まるのでしょう。。。』
2012/10/13 peace 楽(裕)
『ラブワンっつ。。。』
2012/10/15 ピースをプラス(裕)
 
http://junjun.blog-niigata.net/junjun/2012/10/2012-a34c.html
http://d.hatena.ne.jp/italhero/20121015
posted by 坂本 ヒロヒト at 15:00| 新潟 ☀| Comment(0) | TrackBack(0) | 浜めぐり | 更新情報をチェックする
×

この広告は1年以上新しい記事の投稿がないブログに表示されております。