@ピース♡HOME
【2013/09/03 トップページ追加更新】
0--3-----9-----------------------------------------------------------69-------------------88
...o0o...
愛の巣の天使達.JPG
【Iの巣】
街中から山奥へ住を移し、美しい自然と共に生き、
地球に生かされていることに感謝する日々です。
そんな素晴らしさを少しづつ分け愛たい!
と想い季節ごとにOPENする。
『Iの巣』毎回何をするかがお楽しみ。
地球のあちこちから色んな人たちが集まる
秘密基地です。
(http://ameblo.jp/i-no-su/)
0--3-----9 十日町 ------------ 108
0--3-----9-----------------------------------------------------------69-------------------88
...o0o...
junjungo.jpg
【楽器屋 JUNJUN】
(http://www.info-niigata.or.jp/~junjun/)
(http://junjun.blog-niigata.net/)
. .
『ココロから。。。』
0--3-----9 巻町 ------------ 108
0--3-----9-----------------------------------------------------------69-------------------88
...o0o...
梶田イフ.jpg
青空キャンプ
(https://twitter.com/aozora_camp)
【2013/10/11-14 青空キャンプ @大平森林公園開催】
(http://fb.me/13wM8JywY/)
新潟県見附市大平森林公園にて開祭。2023/10/11-14
0--3-----9 見附市 ------------ 108
0--3-----9-----------------------------------------------------------69-------------------88
...o0o...
IMG_0681.JPG
【浜メグリ インフォメーション】
(http://hamameguri-2.sblo.jp/)
【2012/10/前13後 浜メグリ @越前浜開催】終了
0--3-----9 新潟市越前浜 ------------ 108
0--3-----9-----------------------------------------------------------69-------------------88
...o0o...
【三条楽音祭】
sanjyourakuon.jpg
【2013/09/01 @ヒメサユリ森林公園】
(http://rakuonsai.com/)
0--3-----9 三条市 ------------ 108
0--3-----9-----------------------------------------------------------69-------------------88
...o0o...
【坂詰ギグ】
sakazukegig2013.jpg
【2013/09/14-15 坂詰ギグ2013 @山本山高原山頂開催】
(http://blog.crazylaurel.shop-pro.jp/?eid=948560)
東北大震災チャリティLIVE 坂詰ギグ2012
(http://italhero.seesaa.net/article/300090507.html)
0--3-----9 小千谷市 ------------ 108
0--3-----9-----------------------------------------------------------69-------------------88
Tropical Resort BAWWAW!
IMG_0692.JPG
---------
1964/09/090oo...-v(show-wa-japan-olympic-w.)o0o...。。。
うみでうまれやまとであいかえりました。
---------
〒953-0012 新潟市西蒲区越前浜 6838-1
6838-1 Echizenhama Niigatashi,Zip 953-0012,Japan
TELEPHONE/FAX:0256-70-2700
【... .o0o. italhero --- ...】
@BAWWAW!HOME
MESSAGE BOARD
http://italhero.seesaa.net/category/11215262-1.html
0--3-----9-----------------------------------------------------------69-------------------88
0123456789-------108

2011年10月26日

2011/11/05-06 越前浜 AFRICA 祭 & AFRICAN 合宿 @浜茶屋ばうわう

METAL GUINEE.jpg
 
【2011/11/05-06 越前浜 AFRICA 祭 & AFRICAN 合宿】
日本人で、最もド迫力なアフリカンバンド「METAL GUINEE」が新潟にやって来ます!
幾度も長期間アフリカに滞在して身についた感性で、生のアフリカの音をパワフルに奏で、アフリカンダンスの素晴らしさをカッコよく表現します。
特に、彼らの「ドゥンドゥンバ」(アフリカのお祭りのリズム)は必見です!現地の土臭いグルーブで、辺り一面の老若男女が気持ちよく踊り出してしまっちゃいます。
彼らの始めての新潟のライブで、重厚な音圧とグルーブの嵐に入ってみませんか!?

・日時 11月5日(土曜)19:30スタート
・場所 「海の家ばうわう」新潟市西蒲区越前浜海水浴場
・出演
   METAL GUINEE(千葉)
   アセッションプリーズ(山形)
   ファイヤーパフォーマンスterry with UNITE en GUINEE(新潟)
・料金 1800円(電話予約1500円)(合宿参加者500円)

【METAL GUINEE】
2005年ギニアで出会った4人で結成。アフリカの祭りに感動して以来、日本でもアフリカの祭りをやるべく地域を盛り上げるべく日々活動。アフリカへ毎年渡航し修行を重ね、各地でWORKSHOPを展開中。老若男女皆で楽しく踊って歌って人と人が繋がっていくアフリカ音楽をじわじわと世に広めている。ギターやベース、アフリカの弦楽器を使って独自の音楽も追求している。
 
【アセッションプリーズ】
アフリカ太鼓の原点、ギニアのサンバララ村に幾度となく渡航し、山形でアフリカ音楽を伝道している「テル」、「スナオ」二人組みのアフリカンバンド。
 
【ファイヤーパフォーマンスterry with UNITE en GUINEE】
新潟でファイヤーパフォーマンスを早くから熱心に取り組んでいる「terry」と地元新潟のアフリカンバンド「UNITE en GUINEE」の激熱タッグ。

 【ご予約・お問い合わせ】
電話:090-2300-2033(本間)090-5799-8879(阿部)
メール:o9o57998879@docomo.ne.jp
 
@ゆか
明日は新潟越前浜のバウワウにてアフリカ祭り!!
受付で「ゆかから聞いたよ」と言えば前売り料金で入場できますよ〜。
会場は宿泊も可。飲食充実。みんな集まれ!!。。。
(http://www.kenoh.com/mimi/pc/12601647.html)
 

最新記事
(http://italhero.seesaa.net/)
 
@BAWWAW! HOME
(http://italhero.seesaa.net/category/11215262-1.html)

posted by 坂本 ヒロヒト at 17:56| 新潟 ☁| 越前浜茶屋 ばうわう情報 | 更新情報をチェックする
×

この広告は1年以上新しい記事の投稿がないブログに表示されております。